Watch The Blue Sky Turn

Audio clip: Adobe Flash Player (version 9 or above) is required to play this audio clip. Download the latest version here. You also need to have JavaScript enabled in your browser.

Download as mp3

A mouse is getting married
To another mouse
Guess that’s the way it should be
At least that’s how it sounds
We all cry at the end
But some of us cried at the beginning

Later in the evening
After giving up
I start worrying
If I have done enough
We all lived in the end
But some of us weren’t really living

Fantom floating circles
My eyes follow down
The motes could be everything
And everything’s around
We all die in the end
But some of us died in the beginning

I’ll just let the star sun send
Me a piece of energy
Across 93 million miles
Listen to the sound of the wind
Blowing through a hickory tree and
Watch the blue sky turn…
Watch the blue sky turn…
Watch the blue sky turn… and see.

Capo 3rd Fret

Playing bass notes with thumb,
up strum between with index finger

Verse pattern:

   C       G
|------------------------------------------
|----\-------\---\---\---\---\---\---------
|----0-------0---0---0---0---0---0---------
|----2---\---0---0---0---0---0---0---------
|--3---2-0---------------------------------
|----------3---3---3---3---3---3-----------

   C       D
|------------------------------------------
|----\-------\---\---\---\---\---\---------
|----0-------2---2---2---2---2---2---------
|----2---\---0---0---0---0---0---0---------
|--3---2-0---------------------------------
|----------2---2---2---2---2---2-----------
repeat above two lines once

   Am  G   D   Em  C
|------------------------------------------
|----\---\---\---\---\---\---\---\---\---\-
|----2---0---2---0---0---0---0---0---0---0-
|----2---0---0---2---2---2---2---2---2---2-
|--0---------------3-------3-------3-------
|------3---2---0-------3-------3-------3---

   G               C       G
|---------------------------------        
|----\---\---\---\---\-------\---\        
|----0---0---0---0---0-------0---0        
|----0---0---0---0---2---\---0---0        
|------------------3---2-0--------        
|--3---3---3---3-----------3---3--        

Ending chord sequence:
G - D - Em - - -

Am - - - C - - -

G - G - D - Em - - -

Am - - - C - - -

Em - Am - C - - -

G - - -
This entry was posted in Songs and tagged , , , . Bookmark the permalink.

Leave a Reply

Your email address will not be published. Required fields are marked *