I’m Not The Man

Audio clip: Adobe Flash Player (version 9 or above) is required to play this audio clip. Download the latest version here. You also need to have JavaScript enabled in your browser.

Download as mp3

You’re alone in that pointed house
I’m in a large state in the rain
And I hope you aren’t thinking about
Where we’ve been for too long now

Because I’m not the man you met
I’m not the man that got you wet
I’m not the man that took you out of there
And set you free

When we were younger and stronger
We cared about the unimportant things
It’s how everything matters when nothing does
That makes it a fearless run in that rain

Now I’m not the man you met
I’m not the man that got you wet
I’m not the man that took you out of there
And set you free

So just don’t think about it too long
Don’t wonder about the wonder that you don’t have
Just stay warm and dry and I’ll come back
I’ll come back to you

You know I’m the man you met
I am the man that got you wet
I’m the man that took you out of there
And took you with me

Capo 3rd fret

Verse:
C-G-F-C (walk bass string and downbeat)

|---0---1---1---0-
|---1---0---1---1-
|---0---0---2---0-
|---2---0---3---2-
|-3---------------
|-----3---1---0---

Chorus:
F-G-C-Em-Am-G
F-G-C-Em-Am-G
F-C

|---1---1---0---0---0---1---1---1---0---0---0---1---1---0-
|---1---0---1---1---1---0---1---0---1---1---1---0---1---1-
|---2---0---0---0---2---0---2---0---0---0---2---0---2---0-
|---3---0---2---2---2---0---3---0---2---2---2---0---3---2-
|---------3---2---0---------------3---2---0---------------
|-1---3---------------3---1---3---------------3---1---0---
This entry was posted in Songs and tagged , , , . Bookmark the permalink.

One Response to I’m Not The Man

  1. kathie l. says:

    I think this is my favorite of the ones I have listened too….love the cello!

Leave a Reply

Your email address will not be published. Required fields are marked *